Guitar Tab:Paddle Out

From Sublime Wiki
Jump to navigation Jump to search
Paddle Out
By: Sublime
Copyright: 1996

Paddle Out -by Sublime
By JeffMitchell89



This song is made up of one riff of power-chords, 
and a short interlude, here they are:

   D5       B5       C5       A
|----------------------------------|
|----------------------------------|
|--7-7-7-7--4-4-4-4--5-5-5-5--2----|   --this is played with distortion
|--7-7-7-7--4-4-4-4--5-5-5-5--2----|
|--5-5-5-5--2-2-2-2--3-3-3-3--0----|
|----------------------------------|


  (D)
|-----------------------------------|
|-----------------------------------|
|--2--5-4--0-2--5-4--0-2--5-4--0-2--|     --this isn't
|-----------------------------------|
|-----------------------------------|
|-----------------------------------|


|-----------------------------------|
|--3--6-5--1-3--6-5--1-3--6-5--1-3--|
|-----------------------------------|     --and neither is this
|-----------------------------------|
|-----------------------------------|
|-----------------------------------|

Links for Paddle Out

Lyrics ... Interpretations ... Bass Tab